ISO-10303-21;
HEADER;
FILE_DESCRIPTION (( 'STEP AP203' ),
    '1' );
FILE_NAME ('QM-AAQWP-15-900-2100-M.STEP',
    '2021-01-05T02:42:50',
    ( '' ),
    ( '' ),
    'SwSTEP 2.0',
    'SolidWorks 2020',
    '' );
FILE_SCHEMA (( 'CONFIG_CONTROL_DESIGN' ));
ENDSEC;

DATA;
#1 = PRODUCT_RELATED_PRODUCT_CATEGORY ( 'detail', '', ( #173 ) ) ;
#2 = FACE_OUTER_BOUND ( 'NONE', #94, .T. ) ;
#3 = DIRECTION ( 'NONE',  ( 0.000000000000000000, 0.000000000000000000, 1.000000000000000000 ) ) ;
#4 = FACE_OUTER_BOUND ( 'NONE', #41, .T. ) ;
#5 = DIRECTION ( 'NONE',  ( 0.000000000000000000, 0.000000000000000000, 1.000000000000000000 ) ) ;
#6 = AXIS2_PLACEMENT_3D ( 'NONE', #234, #118, #39 ) ;
#7 = DIRECTION ( 'NONE',  ( 0.000000000000000000, 0.000000000000000000, -1.000000000000000000 ) ) ;
#8 = EDGE_LOOP ( 'NONE', ( #233, #328, #201, #107 ) ) ;
#9 = EDGE_CURVE ( 'NONE', #12, #149, #323, .T. ) ;
#10 = ORIENTED_EDGE ( 'NONE', *, *, #294, .F. ) ;
#11 = CARTESIAN_POINT ( 'NONE',  ( 0.5000000000000004441, 7.500000000000000000, 0.000000000000000000 ) ) ;
#12 = VERTEX_POINT ( 'NONE', #126 ) ;
#13 = DATE_AND_TIME ( #251, #249 ) ;
#14 = VECTOR ( 'NONE', #17, 1000.000000000000000 ) ;
#15 = DATE_TIME_ROLE ( 'classification_date' ) ;
#16 = PERSON_AND_ORGANIZATION ( #106, #185 ) ;
#17 = DIRECTION ( 'NONE',  ( -1.000000000000000000, -0.000000000000000000, -0.000000000000000000 ) ) ;
#18 = DATE_AND_TIME ( #245, #19 ) ;
#19 = LOCAL_TIME ( 10, 42, 50.00000000000000000, #301 ) ;
#20 = CARTESIAN_POINT ( 'NONE',  ( -3.000000000000000000, 0.000000000000000000, 0.000000000000000000 ) ) ;
#21 = CIRCLE ( 'NONE', #236, 12.69999999999999929 ) ;
#22 = CARTESIAN_POINT ( 'NONE',  ( -1.614212418857619014, 0.000000000000000000, 12.69999999999999929 ) ) ;
#23 = CIRCLE ( 'NONE', #209, 7.499999999999998224 ) ;
#24 = ADVANCED_FACE ( 'NONE', ( #70, #244 ), #223, .F. ) ;
#25 = CARTESIAN_POINT ( 'NONE',  ( -3.000000000000000000, 1.555301434917138433E-15, -12.69999999999999929 ) ) ;
#26 = CARTESIAN_POINT ( 'NONE',  ( -1.614212418857619014, 0.000000000000000000, 0.000000000000000000 ) ) ;
#27 = AXIS2_PLACEMENT_3D ( 'NONE', #310, #81, #73 ) ;
#28 = DESIGN_CONTEXT ( 'detailed design', #266, 'design' ) ;
#29 = DIRECTION ( 'NONE',  ( -1.000000000000000000, -0.000000000000000000, -0.000000000000000000 ) ) ;
#30 = PLANE ( 'NONE',  #141 ) ;
#31 = AXIS2_PLACEMENT_3D ( 'NONE', #287, #159, #89 ) ;
#32 = ORIENTED_EDGE ( 'NONE', *, *, #97, .F. ) ;
#33 = APPROVAL ( #216, 'UNSPECIFIED' ) ;
#34 = DIRECTION ( 'NONE',  ( -1.000000000000000000, -0.000000000000000000, -0.000000000000000000 ) ) ;
#35 = ORIENTED_EDGE ( 'NONE', *, *, #51, .T. ) ;
#36 = CARTESIAN_POINT ( 'NONE',  ( 0.5000000000000008882, 0.000000000000000000, 7.500000000000000000 ) ) ;
#37 = EDGE_CURVE ( 'NONE', #193, #91, #300, .T. ) ;
#38 = ORIENTED_EDGE ( 'NONE', *, *, #305, .T. ) ;
#39 = DIRECTION ( 'NONE',  ( 1.000000000000000000, 0.000000000000000000, 0.000000000000000000 ) ) ;
#40 = CC_DESIGN_PERSON_AND_ORGANIZATION_ASSIGNMENT ( #71, #225, ( #86 ) ) ;
#41 = EDGE_LOOP ( 'NONE', ( #66, #237 ) ) ;
#42 = LOCAL_TIME ( 10, 42, 50.00000000000000000, #277 ) ;
#43 = PERSON_AND_ORGANIZATION ( #106, #185 ) ;
#44 = ORIENTED_EDGE ( 'NONE', *, *, #51, .F. ) ;
#45 = ADVANCED_BREP_SHAPE_REPRESENTATION ( 'QM-AAQWP-15-900-2100-M', ( #289, #6 ), #229 ) ;
#46 = PERSON_AND_ORGANIZATION ( #106, #185 ) ;
#47 = DIRECTION ( 'NONE',  ( -1.000000000000000000, -0.000000000000000000, -0.000000000000000000 ) ) ;
#48 = DIRECTION ( 'NONE',  ( 0.000000000000000000, 0.000000000000000000, 1.000000000000000000 ) ) ;
#49 = AXIS2_PLACEMENT_3D ( 'NONE', #205, #52, #48 ) ;
#50 = APPROVAL_DATE_TIME ( #297, #226 ) ;
#51 = EDGE_CURVE ( 'NONE', #206, #299, #177, .T. ) ;
#52 = DIRECTION ( 'NONE',  ( -1.000000000000000000, -0.000000000000000000, -0.000000000000000000 ) ) ;
#53 = EDGE_CURVE ( 'NONE', #186, #110, #21, .T. ) ;
#54 = AXIS2_PLACEMENT_3D ( 'NONE', #284, #166, #60 ) ;
#55 = AXIS2_PLACEMENT_3D ( 'NONE', #127, #157, #172 ) ;
#56 = AXIS2_PLACEMENT_3D ( 'NONE', #273, #171, #258 ) ;
#57 = DIRECTION ( 'NONE',  ( 1.000000000000000000, 0.000000000000000000, 0.000000000000000000 ) ) ;
#58 = PRODUCT_DEFINITION_SHAPE ( 'NONE', 'NONE',  #86 ) ;
#59 = DIRECTION ( 'NONE',  ( 0.000000000000000000, 0.000000000000000000, 1.000000000000000000 ) ) ;
#60 = DIRECTION ( 'NONE',  ( 0.000000000000000000, 0.000000000000000000, -1.000000000000000000 ) ) ;
#61 = PRODUCT_DEFINITION_FORMATION_WITH_SPECIFIED_SOURCE ( 'ANY', '', #173, .NOT_KNOWN. ) ;
#62 = EDGE_LOOP ( 'NONE', ( #214, #190, #68, #32 ) ) ;
#63 = ORIENTED_EDGE ( 'NONE', *, *, #305, .F. ) ;
#64 = FACE_OUTER_BOUND ( 'NONE', #268, .T. ) ;
#65 = ORIENTED_EDGE ( 'NONE', *, *, #219, .F. ) ;
#66 = ORIENTED_EDGE ( 'NONE', *, *, #320, .T. ) ;
#67 = DIRECTION ( 'NONE',  ( -1.000000000000000000, 0.000000000000000000, -0.000000000000000000 ) ) ;
#68 = ORIENTED_EDGE ( 'NONE', *, *, #119, .T. ) ;
#69 = SECURITY_CLASSIFICATION_LEVEL ( 'unclassified' ) ;
#70 = FACE_OUTER_BOUND ( 'NONE', #147, .T. ) ;
#71 = PERSON_AND_ORGANIZATION ( #106, #185 ) ;
#72 = ORIENTED_EDGE ( 'NONE', *, *, #232, .F. ) ;
#73 = DIRECTION ( 'NONE',  ( 0.000000000000000000, 0.000000000000000000, 1.000000000000000000 ) ) ;
#74 = CYLINDRICAL_SURFACE ( 'NONE', #27, 7.499999999999998224 ) ;
#75 = APPROVAL_DATE_TIME ( #222, #33 ) ;
#76 = CARTESIAN_POINT ( 'NONE',  ( -1.614212418857619014, 9.184850993605145972E-16, -7.499999999999998224 ) ) ;
#77 = VECTOR ( 'NONE', #228, 1000.000000000000000 ) ;
#78 = DIRECTION ( 'NONE',  ( -1.000000000000000000, -0.000000000000000000, -0.000000000000000000 ) ) ;
#79 = AXIS2_PLACEMENT_3D ( 'NONE', #26, #331, #195 ) ;
#80 = ADVANCED_FACE ( 'NONE', ( #181 ), #74, .F. ) ;
#81 = DIRECTION ( 'NONE',  ( -1.000000000000000000, -0.000000000000000000, -0.000000000000000000 ) ) ;
#82 = ORIENTED_EDGE ( 'NONE', *, *, #113, .T. ) ;
#83 = LINE ( 'NONE', #114, #298 ) ;
#84 = CC_DESIGN_APPROVAL ( #33, ( #61 ) ) ;
#85 = CARTESIAN_POINT ( 'NONE',  ( -0.5000000000000004441, 9.184850993605145972E-16, -7.499999999999998224 ) ) ;
#86 = PRODUCT_DEFINITION ( 'UNKNOWN', '', #61, #28 ) ;
#87 = DIRECTION ( 'NONE',  ( -1.000000000000000000, -0.000000000000000000, -0.000000000000000000 ) ) ;
#88 = ORIENTED_EDGE ( 'NONE', *, *, #97, .T. ) ;
#89 = DIRECTION ( 'NONE',  ( 0.000000000000000000, 0.000000000000000000, 1.000000000000000000 ) ) ;
#90 = APPROVAL_PERSON_ORGANIZATION ( #269, #176, #122 ) ;
#91 = VERTEX_POINT ( 'NONE', #283 ) ;
#92 = APPROVAL_ROLE ( '' ) ;
#93 = AXIS2_PLACEMENT_3D ( 'NONE', #121, #189, #293 ) ;
#94 = EDGE_LOOP ( 'NONE', ( #44, #246, #38, #10 ) ) ;
#95 = CARTESIAN_POINT ( 'NONE',  ( -3.000000000000000000, 0.000000000000000000, 0.000000000000000000 ) ) ;
#96 = DATE_AND_TIME ( #326, #272 ) ;
#97 = EDGE_CURVE ( 'NONE', #288, #12, #224, .T. ) ;
#98 = APPLICATION_CONTEXT ( 'configuration controlled 3d designs of mechanical parts and assemblies' ) ;
#99 = ORIENTED_EDGE ( 'NONE', *, *, #119, .F. ) ;
#100 = PERSON_AND_ORGANIZATION_ROLE ( 'creator' ) ;
#101 = ADVANCED_FACE ( 'NONE', ( #2 ), #275, .F. ) ;
#102 = DIRECTION ( 'NONE',  ( -1.000000000000000000, -0.000000000000000000, -0.000000000000000000 ) ) ;
#103 = LINE ( 'NONE', #132, #315 ) ;
#104 = DIRECTION ( 'NONE',  ( 0.000000000000000000, 0.000000000000000000, 1.000000000000000000 ) ) ;
#105 = SECURITY_CLASSIFICATION ( '', '', #69 ) ;
#106 = PERSON ( 'UNSPECIFIED', 'UNSPECIFIED', 'UNSPECIFIED', ('UNSPECIFIED'), ('UNSPECIFIED'), ('UNSPECIFIED') ) ;
#107 = ORIENTED_EDGE ( 'NONE', *, *, #37, .F. ) ;
#108 = DIRECTION ( 'NONE',  ( 0.000000000000000000, 0.000000000000000000, -1.000000000000000000 ) ) ;
#109 = CYLINDRICAL_SURFACE ( 'NONE', #49, 7.499999999999998224 ) ;
#110 = VERTEX_POINT ( 'NONE', #334 ) ;
#111 = EDGE_CURVE ( 'NONE', #291, #241, #180, .T. ) ;
#112 = FACE_OUTER_BOUND ( 'NONE', #324, .T. ) ;
#113 = EDGE_CURVE ( 'NONE', #186, #193, #154, .T. ) ;
#114 = CARTESIAN_POINT ( 'NONE',  ( -1.614212418857619014, 0.000000000000000000, 7.499999999999998224 ) ) ;
#115 = CLOSED_SHELL ( 'NONE', ( #279, #80, #101, #281, #255, #137, #252, #150, #24, #187 ) ) ;
#116 = DIRECTION ( 'NONE',  ( -0.000000000000000000, 0.000000000000000000, 1.000000000000000000 ) ) ;
#117 = ORIENTED_EDGE ( 'NONE', *, *, #320, .F. ) ;
#118 = DIRECTION ( 'NONE',  ( 0.000000000000000000, 0.000000000000000000, 1.000000000000000000 ) ) ;
#119 = EDGE_CURVE ( 'NONE', #149, #12, #130, .T. ) ;
#120 = CIRCLE ( 'NONE', #306, 7.499999999999998224 ) ;
#121 = CARTESIAN_POINT ( 'NONE',  ( -3.000000000000000000, 0.000000000000000000, 0.000000000000000000 ) ) ;
#122 = APPROVAL_ROLE ( '' ) ;
#123 = AXIS2_PLACEMENT_3D ( 'NONE', #248, #47, #59 ) ;
#124 = CARTESIAN_POINT ( 'NONE',  ( 3.000000000000000000, 12.69999999999999929, 0.000000000000000000 ) ) ;
#125 = MECHANICAL_CONTEXT ( 'NONE', #98, 'mechanical' ) ;
#126 = CARTESIAN_POINT ( 'NONE',  ( -3.000000000000000000, 0.000000000000000000, 7.500000000000000000 ) ) ;
#127 = CARTESIAN_POINT ( 'NONE',  ( 3.000000000000000000, 0.000000000000000000, 0.000000000000000000 ) ) ;
#128 = AXIS2_PLACEMENT_3D ( 'NONE', #282, #57, #256 ) ;
#129 = PERSON_AND_ORGANIZATION_ROLE ( 'design_owner' ) ;
#130 = CIRCLE ( 'NONE', #309, 7.500000000000000000 ) ;
#131 = CYLINDRICAL_SURFACE ( 'NONE', #174, 12.69999999999999929 ) ;
#132 = CARTESIAN_POINT ( 'NONE',  ( -1.614212418857619014, 9.184850993605145972E-16, -7.499999999999998224 ) ) ;
#133 = EDGE_LOOP ( 'NONE', ( #65, #265 ) ) ;
#134 = EDGE_CURVE ( 'NONE', #110, #186, #194, .T. ) ;
#135 = CARTESIAN_POINT ( 'NONE',  ( -0.5000000000000004441, 0.000000000000000000, 0.000000000000000000 ) ) ;
#136 = DIRECTION ( 'NONE',  ( -1.000000000000000000, -0.000000000000000000, -0.000000000000000000 ) ) ;
#137 = ADVANCED_FACE ( 'NONE', ( #276 ), #109, .F. ) ;
#138 = CARTESIAN_POINT ( 'NONE',  ( 3.000000000000000000, 0.000000000000000000, 7.499999999999997335 ) ) ;
#139 = DIRECTION ( 'NONE',  ( -1.000000000000000000, -0.000000000000000000, -0.000000000000000000 ) ) ;
#140 = UNCERTAINTY_MEASURE_WITH_UNIT (LENGTH_MEASURE( 1.000000000000000082E-05 ), #208, 'distance_accuracy_value', 'NONE');
#141 = AXIS2_PLACEMENT_3D ( 'NONE', #11, #67, #116 ) ;
#142 = ORIENTED_EDGE ( 'NONE', *, *, #53, .F. ) ;
#143 = EDGE_LOOP ( 'NONE', ( #321, #35 ) ) ;
#144 = CARTESIAN_POINT ( 'NONE',  ( -1.614212418857619014, 0.000000000000000000, 0.000000000000000000 ) ) ;
#145 = ORIENTED_EDGE ( 'NONE', *, *, #294, .T. ) ;
#146 = DATE_TIME_ROLE ( 'creation_date' ) ;
#147 = EDGE_LOOP ( 'NONE', ( #262, #142 ) ) ;
#148 = PERSON_AND_ORGANIZATION ( #106, #185 ) ;
#149 = VERTEX_POINT ( 'NONE', #278 ) ;
#150 = ADVANCED_FACE ( 'NONE', ( #152 ), #131, .T. ) ;
#151 = DIRECTION ( 'NONE',  ( 0.000000000000000000, 0.000000000000000000, 1.000000000000000000 ) ) ;
#152 = FACE_OUTER_BOUND ( 'NONE', #8, .T. ) ;
#153 = APPROVAL_ROLE ( '' ) ;
#154 = LINE ( 'NONE', #302, #14 ) ;
#155 = AXIS2_PLACEMENT_3D ( 'NONE', #95, #295, #170 ) ;
#156 = EDGE_CURVE ( 'NONE', #206, #241, #103, .T. ) ;
#157 = DIRECTION ( 'NONE',  ( -1.000000000000000000, -0.000000000000000000, -0.000000000000000000 ) ) ;
#158 = CC_DESIGN_DATE_AND_TIME_ASSIGNMENT ( #18, #15, ( #105 ) ) ;
#159 = DIRECTION ( 'NONE',  ( -1.000000000000000000, -0.000000000000000000, -0.000000000000000000 ) ) ;
#160 = ORIENTED_EDGE ( 'NONE', *, *, #9, .T. ) ;
#161 = EDGE_CURVE ( 'NONE', #318, #149, #304, .T. ) ;
#162 = CARTESIAN_POINT ( 'NONE',  ( -0.5000000000000004441, 0.000000000000000000, 0.000000000000000000 ) ) ;
#163 = LOCAL_TIME ( 10, 42, 50.00000000000000000, #188 ) ;
#164 = ORIENTED_EDGE ( 'NONE', *, *, #111, .F. ) ;
#165 = AXIS2_PLACEMENT_3D ( 'NONE', #124, #221, #325 ) ;
#166 = DIRECTION ( 'NONE',  ( 1.000000000000000000, 0.000000000000000000, 0.000000000000000000 ) ) ;
#167 = ORIENTED_EDGE ( 'NONE', *, *, #111, .T. ) ;
#168 = PERSON_AND_ORGANIZATION_ROLE ( 'classification_officer' ) ;
#169 = SHAPE_DEFINITION_REPRESENTATION ( #58, #45 ) ;
#170 = DIRECTION ( 'NONE',  ( 0.000000000000000000, 0.000000000000000000, 1.000000000000000000 ) ) ;
#171 = DIRECTION ( 'NONE',  ( -1.000000000000000000, -0.000000000000000000, -0.000000000000000000 ) ) ;
#172 = DIRECTION ( 'NONE',  ( 0.000000000000000000, 0.000000000000000000, 1.000000000000000000 ) ) ;
#173 = PRODUCT ( 'QM-AAQWP-15-900-2100-M', 'QM-AAQWP-15-900-2100-M', '', ( #125 ) ) ;
#174 = AXIS2_PLACEMENT_3D ( 'NONE', #227, #333, #104 ) ;
#175 = CARTESIAN_POINT ( 'NONE',  ( 3.000000000000000000, 0.000000000000000000, 0.000000000000000000 ) ) ;
#176 = APPROVAL ( #242, 'UNSPECIFIED' ) ;
#177 = CIRCLE ( 'NONE', #56, 7.499999999999997335 ) ;
#178 = EDGE_CURVE ( 'NONE', #110, #91, #253, .T. ) ;
#179 = PLANE ( 'NONE',  #128 ) ;
#180 = CIRCLE ( 'NONE', #123, 7.500000000000000000 ) ;
#181 = FACE_OUTER_BOUND ( 'NONE', #62, .T. ) ;
#182 = APPLICATION_PROTOCOL_DEFINITION ( 'international standard', 'config_control_design', 1994, #98 ) ;
#183 = ORIENTED_EDGE ( 'NONE', *, *, #9, .F. ) ;
#184 = DIRECTION ( 'NONE',  ( 0.000000000000000000, 0.000000000000000000, 1.000000000000000000 ) ) ;
#185 = ORGANIZATION ( 'UNSPECIFIED', 'UNSPECIFIED', '' ) ;
#186 = VERTEX_POINT ( 'NONE', #198 ) ;
#187 = ADVANCED_FACE ( 'NONE', ( #307 ), #179, .F. ) ;
#188 = COORDINATED_UNIVERSAL_TIME_OFFSET ( 8, 0, .AHEAD. ) ;
#189 = DIRECTION ( 'NONE',  ( -1.000000000000000000, -0.000000000000000000, -0.000000000000000000 ) ) ;
#190 = ORIENTED_EDGE ( 'NONE', *, *, #161, .T. ) ;
#191 = PERSON_AND_ORGANIZATION ( #106, #185 ) ;
#192 = APPROVAL_PERSON_ORGANIZATION ( #148, #226, #153 ) ;
#193 = VERTEX_POINT ( 'NONE', #25 ) ;
#194 = CIRCLE ( 'NONE', #55, 12.69999999999999929 ) ;
#195 = DIRECTION ( 'NONE',  ( 0.000000000000000000, 0.000000000000000000, 1.000000000000000000 ) ) ;
#196 = CALENDAR_DATE ( 2021, 5, 1 ) ;
#197 = DIRECTION ( 'NONE',  ( -1.000000000000000000, -0.000000000000000000, -0.000000000000000000 ) ) ;
#198 = CARTESIAN_POINT ( 'NONE',  ( 3.000000000000000000, 1.555301434917138433E-15, -12.69999999999999929 ) ) ;
#199 = CIRCLE ( 'NONE', #217, 12.69999999999999929 ) ;
#200 = EDGE_CURVE ( 'NONE', #318, #288, #120, .T. ) ;
#201 = ORIENTED_EDGE ( 'NONE', *, *, #178, .T. ) ;
#202 = CC_DESIGN_APPROVAL ( #226, ( #86 ) ) ;
#203 = CARTESIAN_POINT ( 'NONE',  ( 3.000000000000000000, 9.184850993605144000E-16, -7.499999999999997335 ) ) ;
#204 = ORIENTED_EDGE ( 'NONE', *, *, #200, .T. ) ;
#205 = CARTESIAN_POINT ( 'NONE',  ( -1.614212418857619014, 0.000000000000000000, 0.000000000000000000 ) ) ;
#206 = VERTEX_POINT ( 'NONE', #203 ) ;
#207 = CC_DESIGN_PERSON_AND_ORGANIZATION_ASSIGNMENT ( #191, #129, ( #173 ) ) ;
#208 =( LENGTH_UNIT ( ) NAMED_UNIT ( * ) SI_UNIT ( .MILLI., .METRE. ) );
#209 = AXIS2_PLACEMENT_3D ( 'NONE', #162, #213, #7 ) ;
#210 = AXIS2_PLACEMENT_3D ( 'NONE', #211, #316, #235 ) ;
#211 = CARTESIAN_POINT ( 'NONE',  ( 0.5000000000000008882, 0.000000000000000000, 0.000000000000000000 ) ) ;
#212 = ORIENTED_EDGE ( 'NONE', *, *, #161, .F. ) ;
#213 = DIRECTION ( 'NONE',  ( 1.000000000000000000, 0.000000000000000000, 0.000000000000000000 ) ) ;
#214 = ORIENTED_EDGE ( 'NONE', *, *, #219, .T. ) ;
#215 = VECTOR ( 'NONE', #78, 1000.000000000000000 ) ;
#216 = APPROVAL_STATUS ( 'not_yet_approved' ) ;
#217 = AXIS2_PLACEMENT_3D ( 'NONE', #259, #87, #312 ) ;
#218 = EDGE_LOOP ( 'NONE', ( #183, #99 ) ) ;
#219 = EDGE_CURVE ( 'NONE', #288, #318, #23, .T. ) ;
#220 = APPROVAL_DATE_TIME ( #96, #176 ) ;
#221 = DIRECTION ( 'NONE',  ( -1.000000000000000000, 0.000000000000000000, -0.000000000000000000 ) ) ;
#222 = DATE_AND_TIME ( #274, #163 ) ;
#223 = PLANE ( 'NONE',  #165 ) ;
#224 = LINE ( 'NONE', #250, #264 ) ;
#225 = PERSON_AND_ORGANIZATION_ROLE ( 'creator' ) ;
#226 = APPROVAL ( #247, 'UNSPECIFIED' ) ;
#227 = CARTESIAN_POINT ( 'NONE',  ( -1.614212418857619014, 0.000000000000000000, 0.000000000000000000 ) ) ;
#228 = DIRECTION ( 'NONE',  ( -1.000000000000000000, -0.000000000000000000, -0.000000000000000000 ) ) ;
#229 =( GEOMETRIC_REPRESENTATION_CONTEXT ( 3 ) GLOBAL_UNCERTAINTY_ASSIGNED_CONTEXT ( ( #140 ) ) GLOBAL_UNIT_ASSIGNED_CONTEXT ( ( #208, #317, #314 ) ) REPRESENTATION_CONTEXT ( 'NONE', 'WORKASPACE' ) );
#230 = DIRECTION ( 'NONE',  ( 1.000000000000000000, 0.000000000000000000, 0.000000000000000000 ) ) ;
#231 = DIRECTION ( 'NONE',  ( -1.000000000000000000, -0.000000000000000000, -0.000000000000000000 ) ) ;
#232 = EDGE_CURVE ( 'NONE', #299, #206, #296, .T. ) ;
#233 = ORIENTED_EDGE ( 'NONE', *, *, #113, .F. ) ;
#234 = CARTESIAN_POINT ( 'NONE',  ( 0.000000000000000000, 0.000000000000000000, 0.000000000000000000 ) ) ;
#235 = DIRECTION ( 'NONE',  ( 0.000000000000000000, 0.000000000000000000, 1.000000000000000000 ) ) ;
#236 = AXIS2_PLACEMENT_3D ( 'NONE', #175, #102, #151 ) ;
#237 = ORIENTED_EDGE ( 'NONE', *, *, #37, .T. ) ;
#238 = CARTESIAN_POINT ( 'NONE',  ( -1.614212418857619014, 0.000000000000000000, 0.000000000000000000 ) ) ;
#239 = EDGE_LOOP ( 'NONE', ( #271, #72, #145, #167 ) ) ;
#240 = FACE_OUTER_BOUND ( 'NONE', #239, .T. ) ;
#241 = VERTEX_POINT ( 'NONE', #261 ) ;
#242 = APPROVAL_STATUS ( 'not_yet_approved' ) ;
#243 = APPROVAL_PERSON_ORGANIZATION ( #303, #33, #92 ) ;
#244 = FACE_BOUND ( 'NONE', #143, .T. ) ;
#245 = CALENDAR_DATE ( 2021, 5, 1 ) ;
#246 = ORIENTED_EDGE ( 'NONE', *, *, #156, .T. ) ;
#247 = APPROVAL_STATUS ( 'not_yet_approved' ) ;
#248 = CARTESIAN_POINT ( 'NONE',  ( 0.5000000000000008882, 0.000000000000000000, 0.000000000000000000 ) ) ;
#249 = LOCAL_TIME ( 10, 42, 50.00000000000000000, #332 ) ;
#250 = CARTESIAN_POINT ( 'NONE',  ( -1.614212418857619014, 0.000000000000000000, 7.499999999999998224 ) ) ;
#251 = CALENDAR_DATE ( 2021, 5, 1 ) ;
#252 = ADVANCED_FACE ( 'NONE', ( #319, #4 ), #260, .F. ) ;
#253 = LINE ( 'NONE', #22, #77 ) ;
#254 = CC_DESIGN_PERSON_AND_ORGANIZATION_ASSIGNMENT ( #43, #168, ( #105 ) ) ;
#255 = ADVANCED_FACE ( 'NONE', ( #240 ), #290, .F. ) ;
#256 = DIRECTION ( 'NONE',  ( 0.000000000000000000, 0.000000000000000000, -1.000000000000000000 ) ) ;
#257 = CC_DESIGN_PERSON_AND_ORGANIZATION_ASSIGNMENT ( #46, #100, ( #61 ) ) ;
#258 = DIRECTION ( 'NONE',  ( 0.000000000000000000, 0.000000000000000000, 1.000000000000000000 ) ) ;
#259 = CARTESIAN_POINT ( 'NONE',  ( -3.000000000000000000, 0.000000000000000000, 0.000000000000000000 ) ) ;
#260 = PLANE ( 'NONE',  #54 ) ;
#261 = CARTESIAN_POINT ( 'NONE',  ( 0.5000000000000008882, 9.184850993605147944E-16, -7.500000000000000000 ) ) ;
#262 = ORIENTED_EDGE ( 'NONE', *, *, #134, .F. ) ;
#263 = CYLINDRICAL_SURFACE ( 'NONE', #329, 12.69999999999999929 ) ;
#264 = VECTOR ( 'NONE', #231, 1000.000000000000000 ) ;
#265 = ORIENTED_EDGE ( 'NONE', *, *, #200, .F. ) ;
#266 = APPLICATION_CONTEXT ( 'configuration controlled 3d designs of mechanical parts and assemblies' ) ;
#267 = CARTESIAN_POINT ( 'NONE',  ( -0.5000000000000004441, 0.000000000000000000, 7.499999999999998224 ) ) ;
#268 = EDGE_LOOP ( 'NONE', ( #313, #82, #117, #285 ) ) ;
#269 = PERSON_AND_ORGANIZATION ( #106, #185 ) ;
#270 = CC_DESIGN_PERSON_AND_ORGANIZATION_ASSIGNMENT ( #16, #292, ( #61 ) ) ;
#271 = ORIENTED_EDGE ( 'NONE', *, *, #156, .F. ) ;
#272 = LOCAL_TIME ( 10, 42, 50.00000000000000000, #330 ) ;
#273 = CARTESIAN_POINT ( 'NONE',  ( 3.000000000000000000, 0.000000000000000000, 0.000000000000000000 ) ) ;
#274 = CALENDAR_DATE ( 2021, 5, 1 ) ;
#275 = CYLINDRICAL_SURFACE ( 'NONE', #79, 7.499999999999998224 ) ;
#276 = FACE_OUTER_BOUND ( 'NONE', #311, .T. ) ;
#277 = COORDINATED_UNIVERSAL_TIME_OFFSET ( 8, 0, .AHEAD. ) ;
#278 = CARTESIAN_POINT ( 'NONE',  ( -3.000000000000000000, 9.184850993605147944E-16, -7.500000000000000000 ) ) ;
#279 = ADVANCED_FACE ( 'NONE', ( #64 ), #263, .T. ) ;
#280 = AXIS2_PLACEMENT_3D ( 'NONE', #144, #139, #5 ) ;
#281 = ADVANCED_FACE ( 'NONE', ( #112 ), #30, .F. ) ;
#282 = CARTESIAN_POINT ( 'NONE',  ( -0.5000000000000004441, 7.500000000000000000, 0.000000000000000000 ) ) ;
#283 = CARTESIAN_POINT ( 'NONE',  ( -3.000000000000000000, 0.000000000000000000, 12.69999999999999929 ) ) ;
#284 = CARTESIAN_POINT ( 'NONE',  ( -3.000000000000000000, 7.500000000000000000, 0.000000000000000000 ) ) ;
#285 = ORIENTED_EDGE ( 'NONE', *, *, #178, .F. ) ;
#286 = CC_DESIGN_SECURITY_CLASSIFICATION ( #105, ( #61 ) ) ;
#287 = CARTESIAN_POINT ( 'NONE',  ( 3.000000000000000000, 0.000000000000000000, 0.000000000000000000 ) ) ;
#288 = VERTEX_POINT ( 'NONE', #267 ) ;
#289 = MANIFOLD_SOLID_BREP ( 'Ðý×', #115 ) ;
#290 = CYLINDRICAL_SURFACE ( 'NONE', #280, 7.499999999999998224 ) ;
#291 = VERTEX_POINT ( 'NONE', #36 ) ;
#292 = PERSON_AND_ORGANIZATION_ROLE ( 'design_supplier' ) ;
#293 = DIRECTION ( 'NONE',  ( 0.000000000000000000, 0.000000000000000000, 1.000000000000000000 ) ) ;
#294 = EDGE_CURVE ( 'NONE', #299, #291, #83, .T. ) ;
#295 = DIRECTION ( 'NONE',  ( -1.000000000000000000, -0.000000000000000000, -0.000000000000000000 ) ) ;
#296 = CIRCLE ( 'NONE', #31, 7.499999999999997335 ) ;
#297 = DATE_AND_TIME ( #196, #42 ) ;
#298 = VECTOR ( 'NONE', #34, 1000.000000000000000 ) ;
#299 = VERTEX_POINT ( 'NONE', #138 ) ;
#300 = CIRCLE ( 'NONE', #155, 12.69999999999999929 ) ;
#301 = COORDINATED_UNIVERSAL_TIME_OFFSET ( 8, 0, .AHEAD. ) ;
#302 = CARTESIAN_POINT ( 'NONE',  ( -1.614212418857619014, 1.555301434917138433E-15, -12.69999999999999929 ) ) ;
#303 = PERSON_AND_ORGANIZATION ( #106, #185 ) ;
#304 = LINE ( 'NONE', #76, #215 ) ;
#305 = EDGE_CURVE ( 'NONE', #241, #291, #308, .T. ) ;
#306 = AXIS2_PLACEMENT_3D ( 'NONE', #135, #230, #108 ) ;
#307 = FACE_OUTER_BOUND ( 'NONE', #133, .T. ) ;
#308 = CIRCLE ( 'NONE', #210, 7.500000000000000000 ) ;
#309 = AXIS2_PLACEMENT_3D ( 'NONE', #20, #136, #3 ) ;
#310 = CARTESIAN_POINT ( 'NONE',  ( -1.614212418857619014, 0.000000000000000000, 0.000000000000000000 ) ) ;
#311 = EDGE_LOOP ( 'NONE', ( #212, #204, #88, #160 ) ) ;
#312 = DIRECTION ( 'NONE',  ( 0.000000000000000000, 0.000000000000000000, 1.000000000000000000 ) ) ;
#313 = ORIENTED_EDGE ( 'NONE', *, *, #134, .T. ) ;
#314 =( NAMED_UNIT ( * ) SI_UNIT ( $, .STERADIAN. ) SOLID_ANGLE_UNIT ( ) );
#315 = VECTOR ( 'NONE', #197, 1000.000000000000000 ) ;
#316 = DIRECTION ( 'NONE',  ( -1.000000000000000000, -0.000000000000000000, -0.000000000000000000 ) ) ;
#317 =( NAMED_UNIT ( * ) PLANE_ANGLE_UNIT ( ) SI_UNIT ( $, .RADIAN. ) );
#318 = VERTEX_POINT ( 'NONE', #85 ) ;
#319 = FACE_BOUND ( 'NONE', #218, .T. ) ;
#320 = EDGE_CURVE ( 'NONE', #91, #193, #199, .T. ) ;
#321 = ORIENTED_EDGE ( 'NONE', *, *, #232, .T. ) ;
#322 = APPLICATION_PROTOCOL_DEFINITION ( 'international standard', 'config_control_design', 1994, #266 ) ;
#323 = CIRCLE ( 'NONE', #93, 7.500000000000000000 ) ;
#324 = EDGE_LOOP ( 'NONE', ( #164, #63 ) ) ;
#325 = DIRECTION ( 'NONE',  ( -0.000000000000000000, 0.000000000000000000, 1.000000000000000000 ) ) ;
#326 = CALENDAR_DATE ( 2021, 5, 1 ) ;
#327 = CC_DESIGN_DATE_AND_TIME_ASSIGNMENT ( #13, #146, ( #86 ) ) ;
#328 = ORIENTED_EDGE ( 'NONE', *, *, #53, .T. ) ;
#329 = AXIS2_PLACEMENT_3D ( 'NONE', #238, #29, #184 ) ;
#330 = COORDINATED_UNIVERSAL_TIME_OFFSET ( 8, 0, .AHEAD. ) ;
#331 = DIRECTION ( 'NONE',  ( -1.000000000000000000, -0.000000000000000000, -0.000000000000000000 ) ) ;
#332 = COORDINATED_UNIVERSAL_TIME_OFFSET ( 8, 0, .AHEAD. ) ;
#333 = DIRECTION ( 'NONE',  ( -1.000000000000000000, -0.000000000000000000, -0.000000000000000000 ) ) ;
#334 = CARTESIAN_POINT ( 'NONE',  ( 3.000000000000000000, 0.000000000000000000, 12.69999999999999929 ) ) ;
#335 = CC_DESIGN_APPROVAL ( #176, ( #105 ) ) ;
ENDSEC;
END-ISO-10303-21;
